Ptc หารายได้ออนไลน์ อาชีพเสริม จ่ายเงิน ซื้อสินค้า Paypal AlertPay LR เว็บที่ลงโมษณา
ตุลาคม 26, 2014, 02:32:42 AM *
ยินดีต้อนรับคุณ, บุคคลทั่วไป กรุณา เข้าสู่ระบบ หรือ ลงทะเบียน

เข้าสู่ระบบด้วยชื่อผู้ใช้ รหัสผ่าน และระยะเวลาในเซสชั่น

เพลง รักเธอคนเดียว - Taxi

กรุณา สมัครสมาชิก เพื่อปิดการแสดงโฆษณา สมัครสมาชิก


ข่าว: ปักหมุดกระทู้ | เครือข่ายคนรักสุขภาพ | ทดสอบความเร็วอินเตอร์เน็ต | จองโรงแรมที่พักในกรุงเทพฯ และทั่วไทย | คู่แข่ง Adsense สมัครง่ายใช้แค่เมล | Cloud Server ถูกที่สุด
   หน้าแรก   ช่วยเหลือ เข้าสู่ระบบ สมัครสมาชิก  
หน้า: [1]
 
ผู้เขียน หัวข้อ: เพลง รักเธอคนเดียว - Taxi  (อ่าน 21163 ครั้ง)
0 สมาชิก และ 1 บุคคลทั่วไป กำลังดูหัวข้อนี้
Dj.ZA
Moderator
Power Membership
*****

จิตพิสัย 30
ออฟไลน์ ออฟไลน์

กระทู้: 4284



« เมื่อ: มิถุนายน 25, 2007, 10:13:03 PM »

เพลง รักเธอคนเดียว
ศิลปิน Taxi

<a href="http://www.ijigg.com/jiggPlayer.swf?Autoplay=0&amp;songID=V2A04E40P0" target="_blank">http://www.ijigg.com/jiggPlayer.swf?Autoplay=0&amp;songID=V2A04E40P0</a>
อาจต้องกดเล่นเพลงด้วยจ้า


เธอเป็นดวงตะวันเมื่อฉันตื่นและเป็นดั่งจันทร์ยามค่ำคืน
แต่ว่าเธออาจจะไม่รู้ตัว เธอและเธอก็เป็นเหมือนดอกไม้ผลิบาน
พูดแล้วก็เขินเธออยู่เหมือนกัน แต่มันก็อยากให้เธอรู้

*ว่าฉันรักเธอคนเดียวไม่เหลือเศษเสี้ยวให้ใคร ให้เธอหมดหัวใจ รับไปได้เลยนะเธอ
จะขอรักเธอคนเดียวไม่ขอเกี่ยวข้องใครๆ รักเธอสุดหัวใจ รักเธอ รักเธอคนเดียว

ฉันมันอาจไม่ดีเท่าไหร่ แต่เธอไม่เคยจะทิ้งไป
แต่ก่อนอย่างไรก็อย่างนั้น ฉันก็อยากขอบคุณเธอที่เปลี่ยน
ให้ฉันเข้าใจว่ารักที่แท้เป็นอย่างไร ที่บอกกันเธอคงไม่ช้าไป ก็ใจฉันนั้นให้เธอคนเดียว

(*)

ก็แค่อยากให้มั่นใจที่พูดไปจากใจฉัน

(*)

สัญญาจากหัวใจ รักเธอ รักเธอคนเดียว
« แก้ไขครั้งสุดท้าย: ธันวาคม 22, 2007, 07:26:36 PM โดย Dijijah` » บันทึกการเข้า

rikio001
บุคคลทั่วไป
« ตอบ #1 เมื่อ: มิถุนายน 26, 2007, 05:15:35 PM »

รักเธอคนเดียว - taxi


C                              Em                                 Dm                             G
เธอเป็นดวงตะวันเมื่อฉันเจอ และเป็นดั่งจันทร์ยามค่ำคืน แต่ว่าเธออาจจะไม่รู้ตัว เย้ เฮอ เฮ
C                              Em        Am                                    Dm                      G
เธอและเธอก็เป็นเหมือนดอกไม้พลิบาน พูดแล้วก็เขินเธออยุ่เหมือนกัน แต่มันก็อยากให้รู้....
                          C                     Am                            Dm              G         
*ว่าฉันรักเธอคนเดียว ไม่เหลือเศษเสี้ยวให้ใคร ให้เธอหมดหัวใจรับไปได้เลยนะเธอ 
               C                           Am                    Dm
จะขอรักเธอคนเดียว ไม่ขอเกี่ยวข้องใครๆ รักเธอสุดหัวใจ
               G           C
รักเธอ รักเธอ คนเดียว
C                          Am                        Dm                             G
ฉันมันอาจไม่ดีเท่าไหร่ แต่เธอไม่เคยจะทิ้งไป แต่ก่อนอย่างไรก็อย่างนั้น เย้เฮ..
C                             Em                 Am                               Dm
ฉันก็อยากขอบคุณเธอที่เปลี่ยนให้ฉันเข้าใจ ว่ารักที่แท้นั้นเป็นอย่างไร
                            G                          C
ที่บอกกับเธอคงไม่ช้าไป ก็ใจฉันนะให้เธอคนเดียว


ซ้ำ*

ก็แค่อยากจะให้มันใจ ที่พูดไปจากใจฉัน

ซ้ำ*
Gm              Cm            F        Bb
        สัญญาจากหัวใจ รักเธอ รักเธอคนเดียว


ท่อน Intro เริ่มแรกเรยนะ
Line 1
1)--------------------------------------------------------------------------------
2)--11-------------------------------------------------------------------------
3)------10--12-----10-----------------------------------------10--12--------
4)----------------12-----10--12--8-10---------8--10--12---------------
5)-------------------------------------------8--10-------------------------------
6)---------------------------------------------------------------------------------

1)--------------------------------------------------------------------------------
2)--11-------------------------------------------------------------------------
3)------10--12-----10-----------------------------------------10--12--------
4)----------------12-----10--12--8-10---------8--10--12---------------
5)-------------------------------------------8--10-------------------------------
6)---------------------------------------------------------------------------------

1)--------------------------------------------------------------------------------
2)--11-------------------------------------------------------------------------
3)------10--12-----10------------------------------------------------------
4)----------------12-----10--12--8-10---------8--10--8--7-------------
5)-------------------------------------------8--10-----------------10--8------
6)---------------------------------------------------------------------------------
Line2 มันจะเล่นแค่จังหวะเดียวไปเรื่อยๆคือ
1)----------------------------------------
2)--6--3-------------6--3---------------
3)---------5--3-------------5--3--------
4)----------------------------------------
5)-----------------------------------------
6)-----------------------------------------
ท่อนนี้Introที่เล่นกะคันโยกแต่จะเขียนเปงการดันสายแทน
1)----------------------------------------------------------------------------
2)---15--17*---17*--15---------15--13--11--13-----11--8----------
3)---------------------------------------------------------------------------
4)---------------------------------------------------------------------------
5)---------------------------------------------------------------------------
6)------------------------------------------------------------------------------

1)-------------------------------------------------------------------------------
2)--11--8--6----/13-------15--13--11--/13--11-11-----------------
3)-------------------------------------------------------------------------------
4)------------------------------------------------------------------------------
5)------------------------------------------------------------------------------
6)-------------------------------------------------------------------------------

อันนี้คือหลังจากจบฮุคแรก
1)-------------------------------------------------------------------------------
2)--11---------------------------------------------------------------------------
3)------10--12-----10--------------------------------10---------------------
4)----------------12-----10--12---8--10---------8-----12--10--8--8----
5)---------------------------------------------8--10-----------------------------
6)---------------------------------------------------------------------------------+

บันทึกการเข้า
หน้า: [1]
 
 
กระโดดไป:  


PHYSICS DICTIONY บทความ เนื้หา สอน PHP MeeLink.com ศูนย์รวม เว็บ ที่ มี PR page rank มากที่สุดในไทย  thainaturecure
[Dictionary] [Thai Export] [Thai webdirectory] [Paypal] [MSN List] วัดความเร็วเน็ตทดสอบความเร็วอินเตอร์เน็ต [Online Payment] [คอคนรักบาส] [SiamSportTalk] [Video สถานที่ท่องเที่ยว] [Download msn 9.0] [InsiteJapan] [Siamchild]
Powered by MySQL Powered by PHP Powered by SMF 1.1.16 | SMF © 2006-2011, Simple Machines Valid XHTML 1.0! Valid CSS!
หน้านี้ถูกสร้างขึ้นภายในเวลา 0.034 วินาที กับ 28 คำสั่ง